Killer Klowns From Outer Space
The Dickies

Tabbed by Eric Kilfoil

For those of you not familiar with the tabit output:


This is a repeat.  The 2 means to repeat twice.

*2|
*||
 ||
 ||
 ||
 ||

I highly recommend getting a copy of tabit.  It is an extremely
useful tool for tabbing songs.

The third bar is drum tab.

35 is the bass drum.  38 is the snare.  42 is the high hat.
49 is the crash cymbal.

E  :------------------------------|--------------------*2|
B  :------------------------------|--------------------*||
G  :12-11-10-11-10-11-------------|-------------------- ||
D  :------------------12-11-10----|-----13---13---12--- ||
A  :---------------------------10-|11---11---11-------- ||
E  :------------------------------|-------------------- ||

G  :------------------------------|--------------------*2|
D  :------------------------------|-------------------- ||
A  :-3--3--3-----3-----3----------|------5---------5--- ||
E  :-------------------------1----|-3---------2-------- ||

49 :-0--0--0-----0-----0----------|--------------------*2|
37 :------------------------------|--------------------*||
46 :------------------------------|-------------------- ||
42 :----------------------0--0--0-|-0-0--0-0--0-0--0-0- ||
38 :-------------------------0----|------0---------0--- ||
35 :-0--0--0-----0-----0----------|-0---------0-0------ ||

=============================================================================

E  :----------------*3|----------------|----------------|
B  :----------------*||----------------|----------------|
G  :---------------- ||----------------|----------------|
D  :---------------- ||----------------|----------------|
A  :---------------- ||----------------|----------------|
E  :---------------- ||----------------|----------------|

G  :----------------*3|----------------|----------------|
D  :---------------- ||----------------|----------------|
A  :3-3-3-3-3-3-3-3- ||3-3-3-3-3-3-3-3-|3-3-3-3-3-3-3-3-|
E  :---------------- ||----------------|----------------|

49 :----------------*3|----------------|----------------|
37 :----------------*||----------------|----------------|
46 :---------------- ||----------------|----------------|
42 :0-0-0-0-0-0-0-0- ||0-0-0-0-0-0-0-0-|0-0-0-0-0-0-0-0-|
38 :----0-------0--- ||----0-------0---|----0-------0---|
35 :0-------0-0----- ||0-------0-0-----|0-------0-0-----|

=============================================================================

E  :----------------|----------------*1|----------------|
B  :----------------|----------------*||----------------|
G  :----------------|---------------- ||----------------|
D  :----------------|---------------- ||----------------|
A  :----------------|---------------- ||----------------|
E  :----------------|---------------- ||----------------|

G  :----------------|----------------*1|----------------|
D  :----------------|---------------- ||----------------|
A  :3-3-3-3-3-3-3-3-|------------5--- ||----------------|
E  :----------------|1-------3------- ||3-3-3-3-3-3-3-3-|

49 :----------------|0-------0---0---*1|----------------|
37 :----------------|----------------*||----------------|
46 :--------------0-|---------------- ||----------------|
42 :0-0-0-0-0-0-0-0-|---------------- ||0-0-0-0-0-0-0-0-|
38 :----0-------0---|----0-------0--- ||----0-------0---|
35 :0-------0-0-----|0-0-----0------- ||0-------0-0-----|

=============================================================================

E  :----------------|-----------------------|----------------------|
B  :----------------|------------17-15-13---|-----------17-15-13---|
G  :----------------|15-------15------------|--------15------------|
D  :----------------|---13-15---------------|--13-15---------------|
A  :----------------|-----------------------|----------------------|
E  :----------------|-----------------------|----------------------|

G  :----------------|-----------------------|----------------------|
D  :----------------|-----------------------|----------------------|
A  :----------------|-------------3---------|------------3---------|
E  :4-4-4-4-4-4-4-4-|-5---------------------|5---------------------|

49 :----------------|-0-----------0---------|0-----------0---------|
37 :----------------|-----------------------|----------------------|
46 :----------------|-----------------------|----------------------|
42 :0-0-0-0-0-1-1-1-|-----------------------|----------------------|
38 :----0---0-------|-------------0---------|------------0---------|
35 :0---------0-0-0-|-0--0-----0------------|0--------0------------|

=============================================================================

E  :----------------|
B  :----------------|
G  :----------------|
D  :----------------|
A  :----------------|
E  :----------------|

G  :----------------|
D  :----------------|
A  :----------------|
E  :3-3-3-3-3-3-3-3-|

49 :----------------|
37 :----------------|
46 :----------------|
42 :0-0-0-0-0-0-0-0-|
38 :----0-------0---|
35 :0-------0-0-----|

=============================================================================

E  :------------------------|*------------------------------|
B  :------------------------|*------------------------------|
G  :------------------------| 12-11-10-11-10-11-------------|
D  :------------------------| ------------------12-11-10----|
A  :------------------------| ---------------------------10-|
E  :------------------------| ------------------------------|

G  :------------------------|*------------------------------|
D  :------------------------| ------------------------------|
A  :------------------------| -3--3--3-----3-----3----------|
E  :4-4-4-4-4---4---4---4---| -------------------------0----|

49 :------------------------|*-0--0--0-----0-----0----------|
37 :------------------------|*------------------------------|
46 :------------------------| ------------------------------|
42 :0-0-0-0-0---------------| ----------------------0--0--0-|
38 :----0---0-0-0-0-0-0-0-0-| -------------------------0----|
35 :0-----------------------| -0--0--0-----0-----0----------|

=============================================================================

E  :--------------------*3|----------------*3|----------------|
B  :--------------------*||----------------*||----------------|
G  :-------------------- ||---------------- ||----------------|
D  :-----13---13---12--- ||---------------- ||----------------|
A  :11---11---11-------- ||---------------- ||----------------|
E  :-------------------- ||---------------- ||----------------|

G  :--------------------*3|----------------*3|----------------|
D  :-------------------- ||---------------- ||----------------|
A  :------5---------5--- ||3-3-3-3-3-3-3-3- ||3-3-3-3-3-3-3-3-|
E  :-3---------2-------- ||---------------- ||----------------|

49 :--------------------*3|----------------*3|----------------|
37 :--------------------*||----------------*||----------------|
46 :-------------------- ||---------------- ||----------------|
42 :-0-0--0-0--0-0--0-0- ||0-0-0-0-0-0-0-0- ||0-0-0-0-0-0-0-0-|
38 :------0---------0--- ||----0-------0--- ||----0-------0---|
35 :-0---------0-0------ ||0-------0-0----- ||0-------0-0-----|

=============================================================================

E  :----------------|----------------|----------------*1|
B  :----------------|----------------|----------------*||
G  :----------------|----------------|---------------- ||
D  :----------------|----------------|---------------- ||
A  :----------------|----------------|---------------- ||
E  :----------------|----------------|---------------- ||

G  :----------------|----------------|----------------*1|
D  :----------------|----------------|---------------- ||
A  :3-3-3-3-3-3-3-3-|3-3-3-3-3-3-3-3-|------------5--- ||
E  :----------------|----------------|1-------3------- ||

49 :----------------|----------------|----------------*1|
37 :----------------|----------------|----------------*||
46 :----------------|----------------|--------------0- ||
42 :0-0-0-0-0-0-0-0-|0-0-0-0-0-0-0-0-|0-0-0-0-0-0-0-0- ||
38 :----0-------0---|----0-------0---|----0-------0--- ||
35 :0-------0-0-----|0-------0-0-----|0-------0-0----- ||

=============================================================================

E  :----------------|----------------|-----------------------|
B  :----------------|----------------|13----------17-15-13---|
G  :----------------|----------------|---------15------------|
D  :----------------|----------------|---13-15---------------|
A  :----------------|----------------|-----------------------|
E  :----------------|----------------|-----------------------|

G  :----------------|----------------|-----------------------|
D  :----------------|----------------|-----------------------|
A  :----------------|----------------|-------------3---------|
E  :3-3-3-3-3-3-3-3-|4-4-4-4-4-4-4-4-|-5---------------------|

49 :0-------0---0---|----------------|-----------------------|
37 :----------------|----------------|-----------------------|
46 :----------------|----------------|-----------------------|
42 :----------------|0-0-0-0-0-0-0-0-|-0--0--0--0--0--1--1-1-|
38 :----0-------0---|----0-------0---|-------0-----0---------|
35 :0-0-----0-------|0-------0-0-----|-0--------------0--0-0-|

=============================================================================

E  :----------------------|----------------|
B  :-----------17-15-13---|----------------|
G  :--------15------------|----------------|
D  :--13-15---------------|----------------|
A  :----------------------|----------------|
E  :----------------------|----------------|

G  :----------------------|----------------|
D  :----------------------|----------------|
A  :------------3---------|----------------|
E  :5---------------------|3-3-3-3-3-3-3-3-|

49 :0-----------0---------|----------------|
37 :----------------------|----------------|
46 :----------------------|----------------|
42 :----------------------|0-0-0-0-0-0-0-0-|
38 :------------0---------|----0-------0---|
35 :0--0-----0------------|0-------0-0-----|

=============================================================================

E  :------------------------|*------------------------------|
B  :------------------------|*------------------------------|
G  :------------------------| 12-11-10-11-10-11-------------|
D  :------------------------| ------------------12-11-10----|
A  :------------------------| ---------------------------10-|
E  :------------------------| ------------------------------|

G  :------------------------|*------------------------------|
D  :------------------------|*------------------------------|
A  :------------------------| -3--3--3-----3-----3-----*----|
E  :4-4-4-4-4---4---4---4---| -------------------------0----|

49 :------------------------|*-0--0--0-----0-----0----------|
37 :------------------------|*------------------------------|
46 :------------------------| ------------------------------|
42 :0-0-0-0-0---------------| ----------------------0--0--0-|
38 :----0---0-0-0-0-0-0-0-0-| -------------------------0----|
35 :0-----------------------| -0--0--0-----0-----0----------|

=============================================================================

E  :--------------------*3|------------------|------------------|
B  :--------------------*||------------------|------------------|
G  :-------------------- ||------------------|------------------|
D  :-----13---13---12--- ||------------------|------------------|
A  :11---11---11-------- ||------------------|------------------|
E  :-------------------- ||3~-------3~-------|3~-------3~-------|

G  :--------------------*3|------------------|------------------|
D  :-------------------- ||------------------|------------------|
A  :------5---------5--- ||3--3-3-3-3--3-3-3-|3--3-3-3-3--3-3-3-|
E  :-3---------2-------- ||------------------|------------------|

49 :--------------------*3|------------------|------------------|
37 :--------------------*||------------------|------------------|
46 :-------------------- ||------------------|------------------|
42 :-0-0--0-0--0-0--0-0- ||0--0-0-0-0--0-0-0-|0--0-0-0-0--0-0-0-|
38 :------0---------0--- ||-----0--------0---|-----0--------0---|
35 :-0---------0-0------ ||0--------0--------|0--------0--------|

=============================================================================

E  :----------------|----------------|------------------|
B  :----------------|----------------|------------------|
G  :----------------|----------------|------------------|
D  :5---------------|3---------------|------------------|
A  :3-------5-------|1-------3-------|------------------|
E  :--------3-------|--------1-------|3~-------3~-------|

G  :----------------|----------------|------------------|
D  :----------------|----------------|------------------|
A  :3---------------|1---------------|3--------3--------|
E  :--------3-------|--------1-------|------------------|

49 :0-------0-------|0---------------|------------------|
37 :----------------|----------------|------------------|
46 :----------------|----------------|------------------|
42 :0-0-0-0-0-0-0-0-|0-0-0-0-0-0-0-0-|0--0-0-0-0--0-0-0-|
38 :----0-------0---|----0-------0---|-----0--------0---|
35 :0-------0-------|0-------0-------|0--------0--------|

=============================================================================

E  :------------------|----------------|----------------|
B  :------------------|----------------|----------------|
G  :------------------|----------------|----------------|
D  :------------------|5-----------6---|7-----------8---|
A  :------------------|3-----------4---|5-----------6---|
E  :3~-------3~-------|----------------|----------------|

G  :------------------|----------------|----------------|
D  :------------------|----------------|----------------|
A  :3--------3--------|3-----------4---|5-----------6---|
E  :------------------|----------------|----------------|

49 :------------------|0-----------0---|0---------------|
37 :------------------|----------------|----------------|
46 :------------------|----------------|----------------|
42 :0--0-0-0-0--0-0-0-|0-0-0-0-0-0-0-0-|0-0-0-0-0-0-0-0-|
38 :-----0--------0---|----0-------0---|----0-------0---|
35 :0--------0--------|0-------0-------|0-------0-------|

=============================================================================

E  :-----------------|------------------|------------------------------|
B  :-----------------|------------------|13-12-11-12-11-12-------------|
G  :-----------------|------------------|------------------13-12-11-12-|
D  :9-----------10---|11-------12-------|------------------------------|
A  :7------------8---|-9-------10-------|------------------------------|
E  :-----------------|------------------|------------------------------|

G  :-----------------|------------------|------------------------------|
D  :-----------------|------------------|------------------------------|
A  :7------------8---|-9-------10-------|-3--3--3-----3-----3----------|
E  :-----------------|------------------|-------------------------3----|

49 :0------------0---|-0--------0-------|-------------------------0----|
37 :-----------------|------------------|------------------------------|
46 :-----------------|------------------|------------------------------|
42 :0-0-0-0-0-0--0-0-|-0-0-0-0--0-0-0-0-|-0--0--0-----0-----0--0--0--0-|
38 :----0--------0---|-----0--------0---|-------0-----------------0----|
35 :0-------0--------|-0--------0-------|-0-----------------0--0-------|

=============================================================================

E  :------------------------------|----------------------------|
B  :------------------------------|----------------------------|
G  :13-12-11-12-11-12-------------|12------------12------------|
D  :------------------13-12-11-12-|-----11-11-12------11-11-12-|
A  :------------------------------|----------------------------|
E  :------------------------------|----------------------------|

G  :------------------------------|----------------------------|
D  :------------------------------|----------------------------|
A  :-3--3--3-----3-----3----------|---------5-------------5----|
E  :-------------------------3----|-3-------------3------------|

49 :-------------------------0----|---------0-------------0----|
37 :------------------------------|----------------------------|
46 :------------------------------|----------------------------|
42 :-0--0--0-----0-----0--0--0--0-|-0-0-----0--0--0-0-----0--0-|
38 :-------0-----------------0----|---------0-------------0----|
35 :-0-----------------0--0-------|-0-------------0------------|

=============================================================================

E  :------------------------------------------|
B  :------------------------------------------|
G  :------------------------10-11-12-13-12-11-|
D  :------------10-11-12-13--*----------------|
A  :10-11-12-13--*----------------------------|
E  :------------------------------------------|

G  :------------------------------------------|
D  :------------------------------------------|
A  :------------------------------------------|
E  :-3-----------3-----------3-----------3----|

49 :-------------------------------------0----|
37 :------------------------------------------|
46 :------------------------------------------|
42 :-0-----0-----0-----0-----0-----0-----0--0-|
38 :-------------0-----------------------0----|
35 :-0-----------------------0-----0----------|

=============================================================================

E  :------------------------------|------------------------------|
B  :13-12-11-12-11-12-------------|------------------------------|
G  :------------------12-11-10-11-|12-11-10-11-10-11-------------|
D  :------------------------------|------------------12-11-10-11-|
A  :------------------------------|------------------------------|
E  :------------------------------|------------------------------|

G  :------------------------------|------------------------------|
D  :------------------------------|------------------------------|
A  :-3--3--3-----3-----3----------|-3--3--3-----3-----3----------|
E  :-------------------------3----|-------------------------3----|

49 :-------------------------0----|-------------------------0----|
37 :------------------------------|------------------------------|
46 :------------------------------|------------------------------|
42 :-0--0--0-----0-----0--0--0--0-|-0--0--0-----0-----0--0--0--0-|
38 :-------0-----------------0----|-------0-----------------0----|
35 :-0-----------------0--0-------|-0-----------------0--0-------|

=============================================================================

E  :----------------------------|
B  :----------------------------|
G  :12------------12------------|
D  :-----11-11-12------11-11-12-|
A  :----------------------------|
E  :----------------------------|

G  :----------------------------|
D  :----------------------------|
A  :---------5-------------5----|
E  :-3-------------3------------|

49 :---------0-------------0----|
37 :----------------------------|
46 :----------------------------|
42 :-0-0-----0--0--0-0-----0--0-|
38 :---------0-------------0----|
35 :-0-------------0------------|

=============================================================================

E  :----------------------------------------------|*--------------------
B  :----------------------------------------------|*--------------------
G  :------------------------10-11-12-13-12---11---| 12-11-10-11-10-11---
D  :------------10-11-12-13-----------------------| ------------------12
A  :10-11-12-13-----------------------------------| --------------------
E  :----------------------------------------------| --------------------

G  :----------------------------------------------|*--------------------
D  :----------------------------------------------| --------------------
A  :----------------------------------------------| -3--3--3-----3-----3
E  :-3-----------3-----------3-----------3--------| --------------------

49 :----------------------------------------------|*-0--0--0-----0-----0
37 :----------------------------------------------|*--------------------
46 :----------------------------------------------| --------------------
42 :-0-----0-----0-----0--------------------------| --------------------
38 :-------------0--0--0--0--0--0--0--0--0-0--0-0-| --------------------
35 :-0--------------------------------------------| -0--0--0-----0-----0

=============================================================================

E  :----------|--------------------*2|----------------*3|
B  :----------|--------------------*||----------------*||
G  :----------|-------------------- ||---------------- ||
D  :-11-10----|-----13---13---12--- ||---------------- ||
A  :-------10-|11---11---11-------- ||---------------- ||
E  :----------|-------------------- ||---------------- ||

G  :----------|--------------------*2|----------------*3|
D  :----------|-------------------- ||---------------- ||
A  :----------|------5---------5--- ||3-3-3-3-3-3-3-3- ||
E  :-----1----|-3---------2-------- ||---------------- ||

49 :----------|--------------------*2|----------------*3|
37 :----------|--------------------*||----------------*||
46 :----------|-------------------- ||---------------- ||
42 :--0--0--0-|-0-0--0-0--0-0--0-0- ||0-0-0-0-0-0-0-0- ||
38 :-----0----|------0---------0--- ||----0-------0--- ||
35 :----------|-0---------0-0------ ||0-------0-0----- ||

=============================================================================

E  :----------------|----------------|----------------|----------------*1|
B  :----------------|----------------|----------------|----------------*||
G  :----------------|----------------|----------------|---------------- ||
D  :----------------|----------------|----------------|---------------- ||
A  :----------------|----------------|----------------|---------------- ||
E  :----------------|----------------|----------------|---------------- ||

G  :----------------|----------------|----------------|----------------*1|
D  :----------------|----------------|----------------|---------------- ||
A  :3-3-3-3-3-3-3-3-|3-3-3-3-3-3-3-3-|3-3-3-3-3-3-3-3-|------------5--- ||
E  :----------------|----------------|----------------|1-------3------- ||

49 :----------------|----------------|----------------|0-------0---0---*1|
37 :----------------|----------------|----------------|----------------*||
46 :----------------|----------------|--------------0-|---------------- ||
42 :0-0-0-0-0-0-0-0-|0-0-0-0-0-0-0-0-|0-0-0-0-0-0-0-0-|---------------- ||
38 :----0-------0---|----0-------0---|----0-------0---|----0-------0--- ||
35 :0-------0-0-----|0-------0-0-----|0-------0-0-----|0-0-----0------- ||

=============================================================================

E  :----------------|----------------|-----------------------|
B  :----------------|----------------|13----------17-15-13---|
G  :----------------|----------------|---------15------------|
D  :----------------|----------------|---13-15---------------|
A  :----------------|----------------|-----------------------|
E  :----------------|----------------|-----------------------|

G  :----------------|----------------|-----------------------|
D  :----------------|----------------|-----------------------|
A  :----------------|----------------|-------------3---------|
E  :3-3-3-3-3-3-3-3-|4-4-4-4-4-4-4-4-|-5---------------------|

49 :0-------0---0---|----------------|-----------------------|
37 :----------------|----------------|-----------------------|
46 :----------------|----------------|-----------------------|
42 :----------------|0-0-0-0-0-0-0-0-|-0--0--0--0--0--1--1-1-|
38 :----0-------0---|----0-------0---|-------0-----0---------|
35 :0-0-----0-------|0-------0-0-----|-0--------------0--0-0-|

=============================================================================

E  :----------------------|----------------|
B  :-----------17-15-13---|----------------|
G  :--------15------------|----------------|
D  :--13-15---------------|----------------|
A  :----------------------|----------------|
E  :----------------------|----------------|

G  :----------------------|----------------|
D  :----------------------|----------------|
A  :------------3---------|----------------|
E  :5---------------------|3-3-3-3-3-3-3-3-|

49 :0-----------0---------|----------------|
37 :----------------------|----------------|
46 :----------------------|----------------|
42 :----------------------|0-0-0-0-0-0-0-0-|
38 :------------0---------|----0-------0---|
35 :0--0-----0------------|0-------0-0-----|

=============================================================================

E  :------------------------|*--------------------------------|
B  :------------------------|*--------------------------------|
G  :------------------------| 12-11-10-11-10-11---------------|
D  :------------------------| ------------------12-11-10------|
A  :------------------------| ---------------------------10-11|
E  :------------------------| --------------------------------|

G  :------------------------|*--------------------------------|
D  :------------------------| --------------------------------|
A  :------------------------| -3--3--3-----3-----3------------|
E  :4-4-4-4-4---4---4---4---| -------------------------0-----3|

49 :------------------------|*-0--0--0-----0-----0------------|
37 :------------------------|*--------------------------------|
46 :------------------------| --------------------------------|
42 :0-0-0-0-0---------------| ----------------------0--0--0--0|
38 :----0---0-0-0-0-0-0-0-0-| -------------------------0------|
35 :0-----------------------| -0--0--0-----0-----0-----------0|

=============================================================================

E  :------------------*11
B  :------------------*||
G  :------------------ ||
D  :---13---13---12--- ||
A  :---11---11-------- ||
E  :------------------ ||

G  :------------------*11
D  :------------------ ||
A  :----5---------5--- ||
E  :---------2-------- ||

49 :------------------*11
37 :------------------*||
46 :------------------ ||
42 :-0--0-0--0-0--0-0- ||
38 :----0---------0--- ||
35 :---------0-0------ ||